ISO-10303-21;
HEADER;
FILE_DESCRIPTION (( 'STEP AP203' ),
    '1' );
FILE_NAME ('Q-AZHWP-10-532-M.STEP',
    '2020-12-22T09:06:04',
    ( '' ),
    ( '' ),
    'SwSTEP 2.0',
    'SolidWorks 2020',
    '' );
FILE_SCHEMA (( 'CONFIG_CONTROL_DESIGN' ));
ENDSEC;

DATA;
#1 = ORIENTED_EDGE ( 'NONE', *, *, #60, .T. ) ;
#2 = CIRCLE ( 'NONE', #59, 5.000000000000000888 ) ;
#3 = EDGE_CURVE ( 'NONE', #9, #112, #309, .T. ) ;
#4 = CARTESIAN_POINT ( 'NONE',  ( -1.250000000000000222, 5.000000000000000000, 0.000000000000000000 ) ) ;
#5 = ORIENTED_EDGE ( 'NONE', *, *, #236, .T. ) ;
#6 = VECTOR ( 'NONE', #54, 1000.000000000000000 ) ;
#7 = AXIS2_PLACEMENT_3D ( 'NONE', #145, #138, #321 ) ;
#8 = VERTEX_POINT ( 'NONE', #244 ) ;
#9 = VERTEX_POINT ( 'NONE', #116 ) ;
#10 = VERTEX_POINT ( 'NONE', #11 ) ;
#11 = CARTESIAN_POINT ( 'NONE',  ( -1.250000000000000222, 0.000000000000000000, 5.000000000000000888 ) ) ;
#12 = MANIFOLD_SOLID_BREP ( 'Ðý×', #99 ) ;
#13 = EDGE_LOOP ( 'NONE', ( #315, #188 ) ) ;
#14 = CARTESIAN_POINT ( 'NONE',  ( -3.000000000000000000, 6.123233995736766282E-16, -5.000000000000000000 ) ) ;
#15 = AXIS2_PLACEMENT_3D ( 'NONE', #51, #247, #327 ) ;
#16 = PERSON_AND_ORGANIZATION_ROLE ( 'creator' ) ;
#17 = ADVANCED_BREP_SHAPE_REPRESENTATION ( 'Q-AZHWP-10-532-M', ( #12, #242 ), #253 ) ;
#18 = CARTESIAN_POINT ( 'NONE',  ( -3.000000000000000000, 0.000000000000000000, 5.000000000000000000 ) ) ;
#19 = CALENDAR_DATE ( 2020, 22, 12 ) ;
#20 = FACE_OUTER_BOUND ( 'NONE', #160, .T. ) ;
#21 = EDGE_CURVE ( 'NONE', #8, #318, #216, .T. ) ;
#22 = CARTESIAN_POINT ( 'NONE',  ( -1.614212418857619014, 0.000000000000000000, 5.000000000000000888 ) ) ;
#23 = PERSON ( 'UNSPECIFIED', 'UNSPECIFIED', 'UNSPECIFIED', ('UNSPECIFIED'), ('UNSPECIFIED'), ('UNSPECIFIED') ) ;
#24 = DATE_AND_TIME ( #333, #72 ) ;
#25 = CARTESIAN_POINT ( 'NONE',  ( 3.000000000000000000, 0.000000000000000000, 5.000000000000001776 ) ) ;
#26 = DIRECTION ( 'NONE',  ( 0.000000000000000000, 0.000000000000000000, 1.000000000000000000 ) ) ;
#27 = APPROVAL_DATE_TIME ( #305, #164 ) ;
#28 = ORIENTED_EDGE ( 'NONE', *, *, #274, .T. ) ;
#29 = ADVANCED_FACE ( 'NONE', ( #297 ), #64, .T. ) ;
#30 = CARTESIAN_POINT ( 'NONE',  ( -3.000000000000000000, 1.555301434917138433E-15, -12.69999999999999929 ) ) ;
#31 = ORIENTED_EDGE ( 'NONE', *, *, #144, .T. ) ;
#32 = CYLINDRICAL_SURFACE ( 'NONE', #58, 5.000000000000000888 ) ;
#33 = PLANE ( 'NONE',  #208 ) ;
#34 = DIRECTION ( 'NONE',  ( -1.000000000000000000, -0.000000000000000000, -0.000000000000000000 ) ) ;
#35 = VECTOR ( 'NONE', #78, 1000.000000000000000 ) ;
#36 = VECTOR ( 'NONE', #199, 1000.000000000000000 ) ;
#37 = EDGE_CURVE ( 'NONE', #88, #10, #2, .T. ) ;
#38 = ORIENTED_EDGE ( 'NONE', *, *, #225, .T. ) ;
#39 = APPROVAL ( #121, 'UNSPECIFIED' ) ;
#40 = ORIENTED_EDGE ( 'NONE', *, *, #21, .F. ) ;
#41 = SECURITY_CLASSIFICATION ( '', '', #76 ) ;
#42 = DIRECTION ( 'NONE',  ( 0.000000000000000000, 0.000000000000000000, -1.000000000000000000 ) ) ;
#43 = CC_DESIGN_DATE_AND_TIME_ASSIGNMENT ( #279, #232, ( #41 ) ) ;
#44 = PLANE ( 'NONE',  #329 ) ;
#45 = CIRCLE ( 'NONE', #293, 5.000000000000000000 ) ;
#46 = DATE_TIME_ROLE ( 'creation_date' ) ;
#47 = CARTESIAN_POINT ( 'NONE',  ( 1.250000000000000444, 0.000000000000000000, 0.000000000000000000 ) ) ;
#48 = PERSON_AND_ORGANIZATION_ROLE ( 'design_owner' ) ;
#49 = PERSON_AND_ORGANIZATION ( #23, #215 ) ;
#50 = CARTESIAN_POINT ( 'NONE',  ( -1.614212418857619014, 0.000000000000000000, 0.000000000000000000 ) ) ;
#51 = CARTESIAN_POINT ( 'NONE',  ( -1.250000000000000222, 0.000000000000000000, 0.000000000000000000 ) ) ;
#52 = AXIS2_PLACEMENT_3D ( 'NONE', #50, #323, #245 ) ;
#53 = CARTESIAN_POINT ( 'NONE',  ( 3.000000000000000000, 0.000000000000000000, 0.000000000000000000 ) ) ;
#54 = DIRECTION ( 'NONE',  ( -1.000000000000000000, -0.000000000000000000, -0.000000000000000000 ) ) ;
#55 = ORIENTED_EDGE ( 'NONE', *, *, #236, .F. ) ;
#56 = LINE ( 'NONE', #183, #6 ) ;
#57 = CARTESIAN_POINT ( 'NONE',  ( 3.000000000000000000, 6.123233995736768255E-16, -5.000000000000001776 ) ) ;
#58 = AXIS2_PLACEMENT_3D ( 'NONE', #283, #207, #314 ) ;
#59 = AXIS2_PLACEMENT_3D ( 'NONE', #273, #61, #42 ) ;
#60 = EDGE_CURVE ( 'NONE', #295, #291, #254, .T. ) ;
#61 = DIRECTION ( 'NONE',  ( 1.000000000000000000, 0.000000000000000000, 0.000000000000000000 ) ) ;
#62 = DIRECTION ( 'NONE',  ( 0.000000000000000000, 0.000000000000000000, 1.000000000000000000 ) ) ;
#63 = CC_DESIGN_APPROVAL ( #39, ( #220 ) ) ;
#64 = CYLINDRICAL_SURFACE ( 'NONE', #209, 12.69999999999999929 ) ;
#65 = CC_DESIGN_PERSON_AND_ORGANIZATION_ASSIGNMENT ( #157, #255, ( #41 ) ) ;
#66 = DIRECTION ( 'NONE',  ( 0.000000000000000000, 0.000000000000000000, 1.000000000000000000 ) ) ;
#67 = CYLINDRICAL_SURFACE ( 'NONE', #170, 12.69999999999999929 ) ;
#68 = CALENDAR_DATE ( 2020, 22, 12 ) ;
#69 = SHAPE_DEFINITION_REPRESENTATION ( #71, #17 ) ;
#70 = DIRECTION ( 'NONE',  ( -1.000000000000000000, -0.000000000000000000, -0.000000000000000000 ) ) ;
#71 = PRODUCT_DEFINITION_SHAPE ( 'NONE', 'NONE',  #191 ) ;
#72 = LOCAL_TIME ( 17, 6, 4.000000000000000000, #285 ) ;
#73 = PERSON_AND_ORGANIZATION ( #23, #215 ) ;
#74 = DIRECTION ( 'NONE',  ( 0.000000000000000000, 0.000000000000000000, 1.000000000000000000 ) ) ;
#75 = CC_DESIGN_PERSON_AND_ORGANIZATION_ASSIGNMENT ( #73, #48, ( #143 ) ) ;
#76 = SECURITY_CLASSIFICATION_LEVEL ( 'unclassified' ) ;
#77 = PERSON_AND_ORGANIZATION_ROLE ( 'creator' ) ;
#78 = DIRECTION ( 'NONE',  ( -1.000000000000000000, -0.000000000000000000, -0.000000000000000000 ) ) ;
#79 = CIRCLE ( 'NONE', #165, 5.000000000000001776 ) ;
#80 = COORDINATED_UNIVERSAL_TIME_OFFSET ( 8, 0, .AHEAD. ) ;
#81 = LINE ( 'NONE', #83, #193 ) ;
#82 = DIRECTION ( 'NONE',  ( 0.000000000000000000, 0.000000000000000000, 1.000000000000000000 ) ) ;
#83 = CARTESIAN_POINT ( 'NONE',  ( -1.614212418857619014, 6.123233995736767268E-16, -5.000000000000000888 ) ) ;
#84 = ORIENTED_EDGE ( 'NONE', *, *, #264, .F. ) ;
#85 = ORIENTED_EDGE ( 'NONE', *, *, #146, .T. ) ;
#86 = ADVANCED_FACE ( 'NONE', ( #91 ), #194, .F. ) ;
#87 = EDGE_LOOP ( 'NONE', ( #38, #270 ) ) ;
#88 = VERTEX_POINT ( 'NONE', #197 ) ;
#89 = DIRECTION ( 'NONE',  ( -1.000000000000000000, -0.000000000000000000, -0.000000000000000000 ) ) ;
#90 = EDGE_LOOP ( 'NONE', ( #55, #84 ) ) ;
#91 = FACE_OUTER_BOUND ( 'NONE', #234, .T. ) ;
#92 = LOCAL_TIME ( 17, 6, 4.000000000000000000, #248 ) ;
#93 = ADVANCED_FACE ( 'NONE', ( #94 ), #252, .F. ) ;
#94 = FACE_OUTER_BOUND ( 'NONE', #258, .T. ) ;
#95 = APPLICATION_PROTOCOL_DEFINITION ( 'international standard', 'config_control_design', 1994, #135 ) ;
#96 = DIRECTION ( 'NONE',  ( -1.000000000000000000, -0.000000000000000000, -0.000000000000000000 ) ) ;
#97 = LOCAL_TIME ( 17, 6, 4.000000000000000000, #98 ) ;
#98 = COORDINATED_UNIVERSAL_TIME_OFFSET ( 8, 0, .AHEAD. ) ;
#99 = CLOSED_SHELL ( 'NONE', ( #29, #296, #139, #93, #86, #201, #159, #103, #218, #334 ) ) ;
#100 = APPROVAL_STATUS ( 'not_yet_approved' ) ;
#101 = CARTESIAN_POINT ( 'NONE',  ( -3.000000000000000000, 5.000000000000000000, 0.000000000000000000 ) ) ;
#102 = FACE_OUTER_BOUND ( 'NONE', #131, .T. ) ;
#103 = ADVANCED_FACE ( 'NONE', ( #302 ), #67, .T. ) ;
#104 = CC_DESIGN_PERSON_AND_ORGANIZATION_ASSIGNMENT ( #204, #126, ( #220 ) ) ;
#105 = EDGE_CURVE ( 'NONE', #10, #169, #275, .T. ) ;
#106 = AXIS2_PLACEMENT_3D ( 'NONE', #227, #281, #156 ) ;
#107 = CARTESIAN_POINT ( 'NONE',  ( 3.000000000000000000, 12.69999999999999929, 0.000000000000000000 ) ) ;
#108 = ORIENTED_EDGE ( 'NONE', *, *, #144, .F. ) ;
#109 = DIRECTION ( 'NONE',  ( 1.000000000000000000, 0.000000000000000000, 0.000000000000000000 ) ) ;
#110 = CIRCLE ( 'NONE', #15, 5.000000000000000888 ) ;
#111 = ORIENTED_EDGE ( 'NONE', *, *, #271, .T. ) ;
#112 = VERTEX_POINT ( 'NONE', #231 ) ;
#113 = DESIGN_CONTEXT ( 'detailed design', #238, 'design' ) ;
#114 = EDGE_CURVE ( 'NONE', #112, #9, #261, .T. ) ;
#115 = ORIENTED_EDGE ( 'NONE', *, *, #21, .T. ) ;
#116 = CARTESIAN_POINT ( 'NONE',  ( 3.000000000000000000, 1.555301434917138433E-15, -12.69999999999999929 ) ) ;
#117 = CARTESIAN_POINT ( 'NONE',  ( -3.000000000000000000, 0.000000000000000000, 0.000000000000000000 ) ) ;
#118 = EDGE_CURVE ( 'NONE', #318, #8, #125, .T. ) ;
#119 = DIRECTION ( 'NONE',  ( -1.000000000000000000, -0.000000000000000000, -0.000000000000000000 ) ) ;
#120 = APPROVAL_PERSON_ORGANIZATION ( #49, #164, #206 ) ;
#121 = APPROVAL_STATUS ( 'not_yet_approved' ) ;
#122 = DIRECTION ( 'NONE',  ( 0.000000000000000000, 0.000000000000000000, -1.000000000000000000 ) ) ;
#123 = DIRECTION ( 'NONE',  ( -1.000000000000000000, -0.000000000000000000, -0.000000000000000000 ) ) ;
#124 = LOCAL_TIME ( 17, 6, 4.000000000000000000, #128 ) ;
#125 = CIRCLE ( 'NONE', #229, 5.000000000000000000 ) ;
#126 = PERSON_AND_ORGANIZATION_ROLE ( 'design_supplier' ) ;
#127 = CARTESIAN_POINT ( 'NONE',  ( -1.614212418857619014, 0.000000000000000000, 5.000000000000000888 ) ) ;
#128 = COORDINATED_UNIVERSAL_TIME_OFFSET ( 8, 0, .AHEAD. ) ;
#129 = CARTESIAN_POINT ( 'NONE',  ( 3.000000000000000000, 0.000000000000000000, 0.000000000000000000 ) ) ;
#130 = ORIENTED_EDGE ( 'NONE', *, *, #118, .F. ) ;
#131 = EDGE_LOOP ( 'NONE', ( #269, #168 ) ) ;
#132 = VECTOR ( 'NONE', #276, 1000.000000000000000 ) ;
#133 = DIRECTION ( 'NONE',  ( 0.000000000000000000, 0.000000000000000000, 1.000000000000000000 ) ) ;
#134 = EDGE_LOOP ( 'NONE', ( #190, #221, #211, #163 ) ) ;
#135 = APPLICATION_CONTEXT ( 'configuration controlled 3d designs of mechanical parts and assemblies' ) ;
#136 = CARTESIAN_POINT ( 'NONE',  ( 1.250000000000000444, 0.000000000000000000, 5.000000000000000000 ) ) ;
#137 = DIRECTION ( 'NONE',  ( 0.000000000000000000, 0.000000000000000000, -1.000000000000000000 ) ) ;
#138 = DIRECTION ( 'NONE',  ( -1.000000000000000000, -0.000000000000000000, -0.000000000000000000 ) ) ;
#139 = ADVANCED_FACE ( 'NONE', ( #174 ), #148, .F. ) ;
#140 = AXIS2_PLACEMENT_3D ( 'NONE', #265, #34, #331 ) ;
#141 = VERTEX_POINT ( 'NONE', #14 ) ;
#142 = ORIENTED_EDGE ( 'NONE', *, *, #105, .F. ) ;
#143 = PRODUCT ( 'Q-AZHWP-10-532-M', 'Q-AZHWP-10-532-M', '', ( #324 ) ) ;
#144 = EDGE_CURVE ( 'NONE', #213, #318, #153, .T. ) ;
#145 = CARTESIAN_POINT ( 'NONE',  ( 3.000000000000000000, 0.000000000000000000, 0.000000000000000000 ) ) ;
#146 = EDGE_CURVE ( 'NONE', #9, #291, #224, .T. ) ;
#147 = ORIENTED_EDGE ( 'NONE', *, *, #326, .F. ) ;
#148 = CYLINDRICAL_SURFACE ( 'NONE', #52, 5.000000000000000888 ) ;
#149 = APPROVAL_ROLE ( '' ) ;
#150 = AXIS2_PLACEMENT_3D ( 'NONE', #129, #312, #259 ) ;
#151 = PERSON_AND_ORGANIZATION ( #23, #215 ) ;
#152 = PERSON_AND_ORGANIZATION ( #23, #215 ) ;
#153 = LINE ( 'NONE', #22, #132 ) ;
#154 = APPLICATION_PROTOCOL_DEFINITION ( 'international standard', 'config_control_design', 1994, #238 ) ;
#155 = CARTESIAN_POINT ( 'NONE',  ( -1.614212418857619014, 1.555301434917138433E-15, -12.69999999999999929 ) ) ;
#156 = DIRECTION ( 'NONE',  ( 0.000000000000000000, 0.000000000000000000, 1.000000000000000000 ) ) ;
#157 = PERSON_AND_ORGANIZATION ( #23, #215 ) ;
#158 = CARTESIAN_POINT ( 'NONE',  ( -3.000000000000000000, 0.000000000000000000, 12.69999999999999929 ) ) ;
#159 = ADVANCED_FACE ( 'NONE', ( #200, #228 ), #44, .F. ) ;
#160 = EDGE_LOOP ( 'NONE', ( #147, #319, #184, #5 ) ) ;
#161 = ORIENTED_EDGE ( 'NONE', *, *, #114, .T. ) ;
#162 = FACE_OUTER_BOUND ( 'NONE', #316, .T. ) ;
#163 = ORIENTED_EDGE ( 'NONE', *, *, #274, .F. ) ;
#164 = APPROVAL ( #100, 'UNSPECIFIED' ) ;
#165 = AXIS2_PLACEMENT_3D ( 'NONE', #53, #306, #26 ) ;
#166 = LINE ( 'NONE', #212, #35 ) ;
#167 = ORIENTED_EDGE ( 'NONE', *, *, #187, .T. ) ;
#168 = ORIENTED_EDGE ( 'NONE', *, *, #3, .F. ) ;
#169 = VERTEX_POINT ( 'NONE', #18 ) ;
#170 = AXIS2_PLACEMENT_3D ( 'NONE', #179, #96, #66 ) ;
#171 = DIRECTION ( 'NONE',  ( 0.000000000000000000, 0.000000000000000000, 1.000000000000000000 ) ) ;
#172 = CARTESIAN_POINT ( 'NONE',  ( -1.614212418857619014, 0.000000000000000000, 0.000000000000000000 ) ) ;
#173 = CARTESIAN_POINT ( 'NONE',  ( 1.250000000000000222, 5.000000000000000000, 0.000000000000000000 ) ) ;
#174 = FACE_OUTER_BOUND ( 'NONE', #311, .T. ) ;
#175 = APPROVAL ( #198, 'UNSPECIFIED' ) ;
#176 = DATE_AND_TIME ( #68, #92 ) ;
#177 = AXIS2_PLACEMENT_3D ( 'NONE', #214, #205, #257 ) ;
#178 = DIRECTION ( 'NONE',  ( 1.000000000000000000, 0.000000000000000000, 0.000000000000000000 ) ) ;
#179 = CARTESIAN_POINT ( 'NONE',  ( -1.614212418857619014, 0.000000000000000000, 0.000000000000000000 ) ) ;
#180 = DIRECTION ( 'NONE',  ( -0.000000000000000000, 0.000000000000000000, 1.000000000000000000 ) ) ;
#181 = DIRECTION ( 'NONE',  ( -0.000000000000000000, 0.000000000000000000, 1.000000000000000000 ) ) ;
#182 =( LENGTH_UNIT ( ) NAMED_UNIT ( * ) SI_UNIT ( .MILLI., .METRE. ) );
#183 = CARTESIAN_POINT ( 'NONE',  ( -1.614212418857619014, 0.000000000000000000, 12.69999999999999929 ) ) ;
#184 = ORIENTED_EDGE ( 'NONE', *, *, #105, .T. ) ;
#185 = EDGE_LOOP ( 'NONE', ( #1, #28 ) ) ;
#186 = CIRCLE ( 'NONE', #150, 5.000000000000001776 ) ;
#187 = EDGE_CURVE ( 'NONE', #10, #88, #110, .T. ) ;
#188 = ORIENTED_EDGE ( 'NONE', *, *, #37, .F. ) ;
#189 = AXIS2_PLACEMENT_3D ( 'NONE', #117, #222, #322 ) ;
#190 = ORIENTED_EDGE ( 'NONE', *, *, #146, .F. ) ;
#191 = PRODUCT_DEFINITION ( 'UNKNOWN', '', #220, #113 ) ;
#192 = ORIENTED_EDGE ( 'NONE', *, *, #118, .T. ) ;
#193 = VECTOR ( 'NONE', #335, 1000.000000000000000 ) ;
#194 = CYLINDRICAL_SURFACE ( 'NONE', #140, 5.000000000000000888 ) ;
#195 = AXIS2_PLACEMENT_3D ( 'NONE', #243, #89, #171 ) ;
#196 = CC_DESIGN_DATE_AND_TIME_ASSIGNMENT ( #176, #46, ( #191 ) ) ;
#197 = CARTESIAN_POINT ( 'NONE',  ( -1.250000000000000222, 6.123233995736767268E-16, -5.000000000000000888 ) ) ;
#198 = APPROVAL_STATUS ( 'not_yet_approved' ) ;
#199 = DIRECTION ( 'NONE',  ( -1.000000000000000000, -0.000000000000000000, -0.000000000000000000 ) ) ;
#200 = FACE_BOUND ( 'NONE', #90, .T. ) ;
#201 = ADVANCED_FACE ( 'NONE', ( #20 ), #203, .F. ) ;
#202 = DATE_AND_TIME ( #19, #97 ) ;
#203 = CYLINDRICAL_SURFACE ( 'NONE', #106, 5.000000000000000888 ) ;
#204 = PERSON_AND_ORGANIZATION ( #23, #215 ) ;
#205 = DIRECTION ( 'NONE',  ( -1.000000000000000000, -0.000000000000000000, -0.000000000000000000 ) ) ;
#206 = APPROVAL_ROLE ( '' ) ;
#207 = DIRECTION ( 'NONE',  ( -1.000000000000000000, -0.000000000000000000, -0.000000000000000000 ) ) ;
#208 = AXIS2_PLACEMENT_3D ( 'NONE', #4, #109, #137 ) ;
#209 = AXIS2_PLACEMENT_3D ( 'NONE', #172, #292, #62 ) ;
#210 = CC_DESIGN_PERSON_AND_ORGANIZATION_ASSIGNMENT ( #301, #16, ( #191 ) ) ;
#211 = ORIENTED_EDGE ( 'NONE', *, *, #268, .T. ) ;
#212 = CARTESIAN_POINT ( 'NONE',  ( -1.614212418857619014, 6.123233995736767268E-16, -5.000000000000000888 ) ) ;
#213 = VERTEX_POINT ( 'NONE', #25 ) ;
#214 = CARTESIAN_POINT ( 'NONE',  ( -3.000000000000000000, 0.000000000000000000, 0.000000000000000000 ) ) ;
#215 = ORGANIZATION ( 'UNSPECIFIED', 'UNSPECIFIED', '' ) ;
#216 = CIRCLE ( 'NONE', #195, 5.000000000000000000 ) ;
#217 = ORIENTED_EDGE ( 'NONE', *, *, #271, .F. ) ;
#218 = ADVANCED_FACE ( 'NONE', ( #102, #299 ), #263, .F. ) ;
#219 = VERTEX_POINT ( 'NONE', #57 ) ;
#220 = PRODUCT_DEFINITION_FORMATION_WITH_SPECIFIED_SOURCE ( 'ANY', '', #143, .NOT_KNOWN. ) ;
#221 = ORIENTED_EDGE ( 'NONE', *, *, #3, .T. ) ;
#222 = DIRECTION ( 'NONE',  ( -1.000000000000000000, -0.000000000000000000, -0.000000000000000000 ) ) ;
#223 = CC_DESIGN_APPROVAL ( #175, ( #191 ) ) ;
#224 = LINE ( 'NONE', #155, #307 ) ;
#225 = EDGE_CURVE ( 'NONE', #213, #219, #79, .T. ) ;
#226 = APPROVAL_DATE_TIME ( #202, #175 ) ;
#227 = CARTESIAN_POINT ( 'NONE',  ( -1.614212418857619014, 0.000000000000000000, 0.000000000000000000 ) ) ;
#228 = FACE_OUTER_BOUND ( 'NONE', #185, .T. ) ;
#229 = AXIS2_PLACEMENT_3D ( 'NONE', #47, #119, #74 ) ;
#230 = LOCAL_TIME ( 17, 6, 4.000000000000000000, #80 ) ;
#231 = CARTESIAN_POINT ( 'NONE',  ( 3.000000000000000000, 0.000000000000000000, 12.69999999999999929 ) ) ;
#232 = DATE_TIME_ROLE ( 'classification_date' ) ;
#233 = CARTESIAN_POINT ( 'NONE',  ( -3.000000000000000000, 0.000000000000000000, 0.000000000000000000 ) ) ;
#234 = EDGE_LOOP ( 'NONE', ( #217, #235, #31, #192 ) ) ;
#235 = ORIENTED_EDGE ( 'NONE', *, *, #225, .F. ) ;
#236 = EDGE_CURVE ( 'NONE', #169, #141, #45, .T. ) ;
#237 = FACE_OUTER_BOUND ( 'NONE', #13, .T. ) ;
#238 = APPLICATION_CONTEXT ( 'configuration controlled 3d designs of mechanical parts and assemblies' ) ;
#239 =( NAMED_UNIT ( * ) SI_UNIT ( $, .STERADIAN. ) SOLID_ANGLE_UNIT ( ) );
#240 = ORIENTED_EDGE ( 'NONE', *, *, #60, .F. ) ;
#241 = AXIS2_PLACEMENT_3D ( 'NONE', #290, #262, #133 ) ;
#242 = AXIS2_PLACEMENT_3D ( 'NONE', #328, #303, #178 ) ;
#243 = CARTESIAN_POINT ( 'NONE',  ( 1.250000000000000444, 0.000000000000000000, 0.000000000000000000 ) ) ;
#244 = CARTESIAN_POINT ( 'NONE',  ( 1.250000000000000444, 6.123233995736766282E-16, -5.000000000000000000 ) ) ;
#245 = DIRECTION ( 'NONE',  ( 0.000000000000000000, 0.000000000000000000, 1.000000000000000000 ) ) ;
#246 = CC_DESIGN_APPROVAL ( #164, ( #41 ) ) ;
#247 = DIRECTION ( 'NONE',  ( 1.000000000000000000, 0.000000000000000000, 0.000000000000000000 ) ) ;
#248 = COORDINATED_UNIVERSAL_TIME_OFFSET ( 8, 0, .AHEAD. ) ;
#249 = CALENDAR_DATE ( 2020, 22, 12 ) ;
#250 = DIRECTION ( 'NONE',  ( 1.000000000000000000, 0.000000000000000000, 0.000000000000000000 ) ) ;
#251 = PERSON_AND_ORGANIZATION ( #23, #215 ) ;
#252 = PLANE ( 'NONE',  #289 ) ;
#253 =( GEOMETRIC_REPRESENTATION_CONTEXT ( 3 ) GLOBAL_UNCERTAINTY_ASSIGNED_CONTEXT ( ( #272 ) ) GLOBAL_UNIT_ASSIGNED_CONTEXT ( ( #182, #286, #239 ) ) REPRESENTATION_CONTEXT ( 'NONE', 'WORKASPACE' ) );
#254 = CIRCLE ( 'NONE', #189, 12.69999999999999929 ) ;
#255 = PERSON_AND_ORGANIZATION_ROLE ( 'classification_officer' ) ;
#256 = APPROVAL_DATE_TIME ( #24, #39 ) ;
#257 = DIRECTION ( 'NONE',  ( 0.000000000000000000, 0.000000000000000000, 1.000000000000000000 ) ) ;
#258 = EDGE_LOOP ( 'NONE', ( #130, #40 ) ) ;
#259 = DIRECTION ( 'NONE',  ( 0.000000000000000000, 0.000000000000000000, 1.000000000000000000 ) ) ;
#260 = ORIENTED_EDGE ( 'NONE', *, *, #268, .F. ) ;
#261 = CIRCLE ( 'NONE', #332, 12.69999999999999929 ) ;
#262 = DIRECTION ( 'NONE',  ( -1.000000000000000000, -0.000000000000000000, -0.000000000000000000 ) ) ;
#263 = PLANE ( 'NONE',  #320 ) ;
#264 = EDGE_CURVE ( 'NONE', #141, #169, #298, .T. ) ;
#265 = CARTESIAN_POINT ( 'NONE',  ( -1.614212418857619014, 0.000000000000000000, 0.000000000000000000 ) ) ;
#266 = APPROVAL_PERSON_ORGANIZATION ( #251, #175, #149 ) ;
#267 = ORIENTED_EDGE ( 'NONE', *, *, #310, .F. ) ;
#268 = EDGE_CURVE ( 'NONE', #112, #295, #56, .T. ) ;
#269 = ORIENTED_EDGE ( 'NONE', *, *, #114, .F. ) ;
#270 = ORIENTED_EDGE ( 'NONE', *, *, #310, .T. ) ;
#271 = EDGE_CURVE ( 'NONE', #219, #8, #166, .T. ) ;
#272 = UNCERTAINTY_MEASURE_WITH_UNIT (LENGTH_MEASURE( 1.000000000000000082E-05 ), #182, 'distance_accuracy_value', 'NONE');
#273 = CARTESIAN_POINT ( 'NONE',  ( -1.250000000000000222, 0.000000000000000000, 0.000000000000000000 ) ) ;
#274 = EDGE_CURVE ( 'NONE', #291, #295, #277, .T. ) ;
#275 = LINE ( 'NONE', #127, #36 ) ;
#276 = DIRECTION ( 'NONE',  ( -1.000000000000000000, -0.000000000000000000, -0.000000000000000000 ) ) ;
#277 = CIRCLE ( 'NONE', #241, 12.69999999999999929 ) ;
#278 = CARTESIAN_POINT ( 'NONE',  ( 3.000000000000000000, 0.000000000000000000, 0.000000000000000000 ) ) ;
#279 = DATE_AND_TIME ( #330, #124 ) ;
#280 = DIRECTION ( 'NONE',  ( 0.000000000000000000, 0.000000000000000000, 1.000000000000000000 ) ) ;
#281 = DIRECTION ( 'NONE',  ( -1.000000000000000000, -0.000000000000000000, -0.000000000000000000 ) ) ;
#282 = CC_DESIGN_PERSON_AND_ORGANIZATION_ASSIGNMENT ( #152, #77, ( #220 ) ) ;
#283 = CARTESIAN_POINT ( 'NONE',  ( -1.614212418857619014, 0.000000000000000000, 0.000000000000000000 ) ) ;
#284 = CC_DESIGN_SECURITY_CLASSIFICATION ( #41, ( #220 ) ) ;
#285 = COORDINATED_UNIVERSAL_TIME_OFFSET ( 8, 0, .AHEAD. ) ;
#286 =( NAMED_UNIT ( * ) PLANE_ANGLE_UNIT ( ) SI_UNIT ( $, .RADIAN. ) );
#287 = DIRECTION ( 'NONE',  ( -1.000000000000000000, 0.000000000000000000, -0.000000000000000000 ) ) ;
#288 = APPROVAL_PERSON_ORGANIZATION ( #151, #39, #325 ) ;
#289 = AXIS2_PLACEMENT_3D ( 'NONE', #173, #300, #180 ) ;
#290 = CARTESIAN_POINT ( 'NONE',  ( -3.000000000000000000, 0.000000000000000000, 0.000000000000000000 ) ) ;
#291 = VERTEX_POINT ( 'NONE', #30 ) ;
#292 = DIRECTION ( 'NONE',  ( -1.000000000000000000, -0.000000000000000000, -0.000000000000000000 ) ) ;
#293 = AXIS2_PLACEMENT_3D ( 'NONE', #233, #304, #82 ) ;
#294 = ORIENTED_EDGE ( 'NONE', *, *, #326, .T. ) ;
#295 = VERTEX_POINT ( 'NONE', #158 ) ;
#296 = ADVANCED_FACE ( 'NONE', ( #162 ), #32, .F. ) ;
#297 = FACE_OUTER_BOUND ( 'NONE', #313, .T. ) ;
#298 = CIRCLE ( 'NONE', #177, 5.000000000000000000 ) ;
#299 = FACE_BOUND ( 'NONE', #87, .T. ) ;
#300 = DIRECTION ( 'NONE',  ( -1.000000000000000000, 0.000000000000000000, -0.000000000000000000 ) ) ;
#301 = PERSON_AND_ORGANIZATION ( #23, #215 ) ;
#302 = FACE_OUTER_BOUND ( 'NONE', #134, .T. ) ;
#303 = DIRECTION ( 'NONE',  ( 0.000000000000000000, 0.000000000000000000, 1.000000000000000000 ) ) ;
#304 = DIRECTION ( 'NONE',  ( -1.000000000000000000, -0.000000000000000000, -0.000000000000000000 ) ) ;
#305 = DATE_AND_TIME ( #249, #230 ) ;
#306 = DIRECTION ( 'NONE',  ( -1.000000000000000000, -0.000000000000000000, -0.000000000000000000 ) ) ;
#307 = VECTOR ( 'NONE', #123, 1000.000000000000000 ) ;
#308 = ORIENTED_EDGE ( 'NONE', *, *, #264, .T. ) ;
#309 = CIRCLE ( 'NONE', #7, 12.69999999999999929 ) ;
#310 = EDGE_CURVE ( 'NONE', #219, #213, #186, .T. ) ;
#311 = EDGE_LOOP ( 'NONE', ( #267, #111, #115, #108 ) ) ;
#312 = DIRECTION ( 'NONE',  ( -1.000000000000000000, -0.000000000000000000, -0.000000000000000000 ) ) ;
#313 = EDGE_LOOP ( 'NONE', ( #161, #85, #240, #260 ) ) ;
#314 = DIRECTION ( 'NONE',  ( 0.000000000000000000, 0.000000000000000000, 1.000000000000000000 ) ) ;
#315 = ORIENTED_EDGE ( 'NONE', *, *, #187, .F. ) ;
#316 = EDGE_LOOP ( 'NONE', ( #167, #294, #308, #142 ) ) ;
#317 = PRODUCT_RELATED_PRODUCT_CATEGORY ( 'detail', '', ( #143 ) ) ;
#318 = VERTEX_POINT ( 'NONE', #136 ) ;
#319 = ORIENTED_EDGE ( 'NONE', *, *, #37, .T. ) ;
#320 = AXIS2_PLACEMENT_3D ( 'NONE', #107, #287, #181 ) ;
#321 = DIRECTION ( 'NONE',  ( 0.000000000000000000, 0.000000000000000000, 1.000000000000000000 ) ) ;
#322 = DIRECTION ( 'NONE',  ( 0.000000000000000000, 0.000000000000000000, 1.000000000000000000 ) ) ;
#323 = DIRECTION ( 'NONE',  ( -1.000000000000000000, -0.000000000000000000, -0.000000000000000000 ) ) ;
#324 = MECHANICAL_CONTEXT ( 'NONE', #135, 'mechanical' ) ;
#325 = APPROVAL_ROLE ( '' ) ;
#326 = EDGE_CURVE ( 'NONE', #88, #141, #81, .T. ) ;
#327 = DIRECTION ( 'NONE',  ( 0.000000000000000000, 0.000000000000000000, -1.000000000000000000 ) ) ;
#328 = CARTESIAN_POINT ( 'NONE',  ( 0.000000000000000000, 0.000000000000000000, 0.000000000000000000 ) ) ;
#329 = AXIS2_PLACEMENT_3D ( 'NONE', #101, #250, #122 ) ;
#330 = CALENDAR_DATE ( 2020, 22, 12 ) ;
#331 = DIRECTION ( 'NONE',  ( 0.000000000000000000, 0.000000000000000000, 1.000000000000000000 ) ) ;
#332 = AXIS2_PLACEMENT_3D ( 'NONE', #278, #70, #280 ) ;
#333 = CALENDAR_DATE ( 2020, 22, 12 ) ;
#334 = ADVANCED_FACE ( 'NONE', ( #237 ), #33, .F. ) ;
#335 = DIRECTION ( 'NONE',  ( -1.000000000000000000, -0.000000000000000000, -0.000000000000000000 ) ) ;
ENDSEC;
END-ISO-10303-21;
